  0
SECTION
  2
HEADER
  9
$ACADVER
  1
AC1009
  9
$EXTMAX
 10
300.0
 20
300.0
 30
0.0
  9
$EXTMIN
 10
0.0
 20
0.0
 30
0.0
  9
$INSUNITS
 70
     4
  9
$LUNITS
 70
     2
  9
$LUPREC
 70
     4
  9
$MEASUREMENT
 70
     1
  0
ENDSEC
  0
SECTION
  2
TABLES
  0
TABLE
  2
LAYER
 70
     1
  0
LAYER
  2
0
 70
     0
 62
     7
  6
Continuous
  0
LAYER
  2
Layer1
 70
     0
 62
    70
  6
Continuous
  0
LAYER
  2
Holes
 70
     0
 62
     5
  6
Continuous
  0
LAYER
  2
Polyline
 70
     0
 62
     6
  6
Continuous
  0
LAYER
  2
OutCircle
 70
     0
 62
   132
  6
Continuous
  0
LAYER
  2
1.5mmHole
 70
     0
 62
    22
  6
Continuous
  0
LAYER
  2
3mmHole
 70
     0
 62
     2
  6
Continuous
  0
LAYER
  2
5mmHole
 70
     0
 62
    70
  6
Continuous
  0
LAYER
  2
5.5mmHoleNoCut
 70
     0
 62
     1
  6
Continuous
  0
LAYER
  2
6mmHole
 70
     0
 62
    17
  6
Continuous
  0
LAYER
  2
8mmHole
 70
     0
 62
   211
  6
Continuous
  0
LAYER
  2
InProfile
 70
     0
 62
    70
  6
Continuous
  0
LAYER
  2
outProfile
 70
     0
 62
    70
  6
Continuous
  0
ENDTAB
  0
TABLE
  2
APPID
 70
     1
  0
APPID
  2
ACAD
 70
     0
  0
ENDTAB
  0
ENDSEC
  0
SECTION
  2
ENTITIES
  0
POLYLINE
  8
Layer1
 66
     1
 10
0.0
 20
0.0
 30
0.0
 70
     1
  0
VERTEX
  8
Layer1
 10
0.0
 20
0.0
 42
0.0
  0
VERTEX
  8
Layer1
 10
300.0
 20
0.0
 42
0.0
  0
VERTEX
  8
Layer1
 10
300.0
 20
300.0
 42
0.0
  0
VERTEX
  8
Layer1
 10
0.0
 20
300.0
 42
0.0
  0
SEQEND
  0
POLYLINE
  8
Layer1
 66
     1
 10
0.0
 20
0.0
 30
0.0
 70
     1
  0
VERTEX
  8
Layer1
 10
5.0
 20
5.0
 42
0.0
  0
VERTEX
  8
Layer1
 10
295.0
 20
5.0
 42
0.0
  0
VERTEX
  8
Layer1
 10
295.0
 20
295.0
 42
0.0
  0
VERTEX
  8
Layer1
 10
5.0
 20
295.0
 42
0.0
  0
SEQEND
  0
CIRCLE
  8
OutCircle
 10
240.0
 20
248.0
 30
0.0
 40
45.0
  0
CIRCLE
  8
OutCircle
 10
56.4999997395399
 20
61.500000062767
 30
0.0
 40
47.5
  0
CIRCLE
  8
OutCircle
 10
170.69579322451
 20
96.6630095839568
 30
0.0
 40
10.0
  0
CIRCLE
  8
OutCircle
 10
171.0
 20
47.0
 30
0.0
 40
10.0
  0
CIRCLE
  8
1.5mmHole
 10
22.878974837853
 20
170.515052419291
 30
0.0
 40
0.8
  0
CIRCLE
  8
1.5mmHole
 10
15.6
 20
163.116042153713
 30
0.0
 40
0.8
  0
CIRCLE
  8
1.5mmHole
 10
23.0
 20
155.716042153713
 30
0.0
 40
0.8
  0
CIRCLE
  8
1.5mmHole
 10
30.4
 20
163.116042153713
 30
0.0
 40
0.8
  0
CIRCLE
  8
1.5mmHole
 10
136.6
 20
163.116042153713
 30
0.0
 40
0.8
  0
CIRCLE
  8
1.5mmHole
 10
144.0
 20
170.516042153713
 30
0.0
 40
0.8
  0
CIRCLE
  8
1.5mmHole
 10
151.4
 20
163.116042153713
 30
0.0
 40
0.8
  0
CIRCLE
  8
1.5mmHole
 10
144.121025162147
 20
155.717031888135
 30
0.0
 40
0.8
  0
CIRCLE
  8
1.5mmHole
 10
77.5
 20
127.75
 30
0.0
 40
0.8
  0
CIRCLE
  8
1.5mmHole
 10
77.5
 20
124.25
 30
0.0
 40
0.8
  0
CIRCLE
  8
1.5mmHole
 10
91.0
 20
124.25
 30
0.0
 40
0.75
  0
CIRCLE
  8
1.5mmHole
 10
91.0
 20
127.75
 30
0.0
 40
0.75
  0
CIRCLE
  8
1.5mmHole
 10
138.478974837853
 20
114.399010265578
 30
0.0
 40
0.8
  0
CIRCLE
  8
1.5mmHole
 10
145.878974837853
 20
121.799010265578
 30
0.0
 40
0.8
  0
CIRCLE
  8
1.5mmHole
 10
153.278974837853
 20
114.399010265578
 30
0.0
 40
0.8
  0
CIRCLE
  8
1.5mmHole
 10
146.0
 20
107.0
 30
0.0
 40
0.8
  0
CIRCLE
  8
1.5mmHole
 10
148.908366352236
 20
69.8274342475368
 30
0.0
 40
0.75
  0
CIRCLE
  8
1.5mmHole
 10
152.408366352236
 20
69.8274342475368
 30
0.0
 40
0.75
  0
CIRCLE
  8
1.5mmHole
 10
152.408366352236
 20
56.3274342475368
 30
0.0
 40
0.8
  0
CIRCLE
  8
1.5mmHole
 10
148.908366352236
 20
56.3274342475368
 30
0.0
 40
0.8
  0
CIRCLE
  8
1.5mmHole
 10
125.566697543094
 20
27.6519136107927
 30
0.0
 40
0.9
  0
CIRCLE
  8
1.5mmHole
 10
154.066697543093
 20
27.6519136107927
 30
0.0
 40
0.9
  0
CIRCLE
  8
1.5mmHole
 10
247.4
 20
248.0
 30
0.0
 40
0.8
  0
CIRCLE
  8
1.5mmHole
 10
240.121025162147
 20
240.600989734422
 30
0.0
 40
0.8
  0
CIRCLE
  8
1.5mmHole
 10
232.6
 20
248.0
 30
0.0
 40
0.8
  0
CIRCLE
  8
1.5mmHole
 10
240.0
 20
255.4
 30
0.0
 40
0.8
  0
CIRCLE
  8
3mmHole
 10
22.1167774786046
 20
36.5191268403369
 30
0.0
 40
1.5
  0
CIRCLE
  8
3mmHole
 10
41.9999997395399
 20
56.1250000627669
 30
0.0
 40
1.5
  0
CIRCLE
  8
3mmHole
 10
41.9999997395399
 20
66.6250000627669
 30
0.0
 40
1.5
  0
CIRCLE
  8
3mmHole
 10
89.99999973954
 20
66.6250000627669
 30
0.0
 40
1.5
  0
CIRCLE
  8
3mmHole
 10
119.086937507646
 20
63.4198618559483
 30
0.0
 40
1.5
  0
CIRCLE
  8
3mmHole
 10
98.9999997395399
 20
61.500000062767
 30
0.0
 40
1.5
  0
CIRCLE
  8
3mmHole
 10
89.99999973954
 20
56.1250000627669
 30
0.0
 40
1.5
  0
CIRCLE
  8
3mmHole
 10
69.6332220004753
 20
21.0800981202229
 30
0.0
 40
1.5
  0
CIRCLE
  8
3mmHole
 10
121.366697543094
 20
27.6519136107927
 30
0.0
 40
1.5
  0
CIRCLE
  8
3mmHole
 10
127.366697543094
 20
44.6219136107927
 30
0.0
 40
1.5
  0
CIRCLE
  8
3mmHole
 10
138.566697543094
 20
44.6219136107927
 30
0.0
 40
1.5
  0
CIRCLE
  8
3mmHole
 10
154.476328929677
 20
45.9993079671386
 30
0.0
 40
1.5
  0
CIRCLE
  8
3mmHole
 10
163.370898299916
 20
26.982882980846
 30
0.0
 40
1.5
  0
CIRCLE
  8
3mmHole
 10
163.370898299916
 20
15.982882980846
 30
0.0
 40
1.5
  0
CIRCLE
  8
3mmHole
 10
177.89272840263
 20
68.5
 30
0.0
 40
1.5
  0
CIRCLE
  8
3mmHole
 10
194.509506141695
 20
43.5191267775699
 30
0.0
 40
1.5
  0
CIRCLE
  8
3mmHole
 10
242.025950663566
 20
28.080098057456
 30
0.0
 40
1.5
  0
CIRCLE
  8
3mmHole
 10
228.89272840263
 20
17.5
 30
0.0
 40
1.5
  0
CIRCLE
  8
3mmHole
 10
192.370898299916
 20
26.982882980846
 30
0.0
 40
1.5
  0
CIRCLE
  8
3mmHole
 10
192.370898299916
 20
15.982882980846
 30
0.0
 40
1.5
  0
CIRCLE
  8
3mmHole
 10
271.39272840263
 20
68.5
 30
0.0
 40
1.5
  0
CIRCLE
  8
3mmHole
 10
279.89272840263
 20
68.5
 30
0.0
 40
1.5
  0
CIRCLE
  8
3mmHole
 10
228.89272840263
 20
119.5
 30
0.0
 40
1.5
  0
CIRCLE
  8
3mmHole
 10
62.84896730056
 20
233.11654585007
 30
0.0
 40
1.5
  0
CIRCLE
  8
3mmHole
 10
62.84896730056
 20
222.61654585007
 30
0.0
 40
1.5
  0
CIRCLE
  8
3mmHole
 10
13.84896730056
 20
233.11654585007
 30
0.0
 40
1.5
  0
CIRCLE
  8
3mmHole
 10
13.84896730056
 20
222.61654585007
 30
0.0
 40
1.5
  0
CIRCLE
  8
3mmHole
 10
184.84896730056
 20
233.11654585007
 30
0.0
 40
1.5
  0
CIRCLE
  8
3mmHole
 10
184.84896730056
 20
222.61654585007
 30
0.0
 40
1.5
  0
CIRCLE
  8
3mmHole
 10
135.84896730056
 20
233.11654585007
 30
0.0
 40
1.5
  0
CIRCLE
  8
3mmHole
 10
135.84896730056
 20
222.61654585007
 30
0.0
 40
1.5
  0
CIRCLE
  8
3mmHole
 10
69.34896730056
 20
227.86654585007
 30
0.0
 40
1.5
  0
CIRCLE
  8
3mmHole
 10
129.34896730056
 20
227.86654585007
 30
0.0
 40
1.5
  0
CIRCLE
  8
3mmHole
 10
184.84896730056
 20
217.61654585007
 30
0.0
 40
1.5
  0
CIRCLE
  8
3mmHole
 10
64.334247684246
 20
270.414971423556
 30
0.0
 40
1.5
  0
CIRCLE
  8
3mmHole
 10
64.334247684246
 20
259.914971423556
 30
0.0
 40
1.5
  0
CIRCLE
  8
3mmHole
 10
15.334247684246
 20
270.414971423556
 30
0.0
 40
1.5
  0
CIRCLE
  8
3mmHole
 10
15.334247684246
 20
259.914971423556
 30
0.0
 40
1.5
  0
CIRCLE
  8
3mmHole
 10
186.334247684246
 20
270.414971423556
 30
0.0
 40
1.5
  0
CIRCLE
  8
3mmHole
 10
186.334247684246
 20
259.914971423556
 30
0.0
 40
1.5
  0
CIRCLE
  8
3mmHole
 10
137.334247684246
 20
270.414971423556
 30
0.0
 40
1.5
  0
CIRCLE
  8
3mmHole
 10
137.334247684246
 20
259.914971423556
 30
0.0
 40
1.5
  0
CIRCLE
  8
3mmHole
 10
70.834247684246
 20
265.164971423556
 30
0.0
 40
1.5
  0
CIRCLE
  8
3mmHole
 10
130.834247684246
 20
265.164971423556
 30
0.0
 40
1.5
  0
CIRCLE
  8
3mmHole
 10
186.334247684246
 20
254.914971423556
 30
0.0
 40
1.5
  0
CIRCLE
  8
3mmHole
 10
213.022244755778
 20
135.51766554194
 30
0.0
 40
1.5
  0
CIRCLE
  8
3mmHole
 10
228.522244755778
 20
139.01766554194
 30
0.0
 40
1.5
  0
CIRCLE
  8
3mmHole
 10
218.022244755778
 20
139.01766554194
 30
0.0
 40
1.5
  0
CIRCLE
  8
3mmHole
 10
228.522244755778
 20
187.01766554194
 30
0.0
 40
1.5
  0
CIRCLE
  8
3mmHole
 10
218.022244755778
 20
187.01766554194
 30
0.0
 40
1.5
  0
CIRCLE
  8
3mmHole
 10
186.0
 20
148.5
 30
0.0
 40
1.5
  0
CIRCLE
  8
3mmHole
 10
175.5
 20
148.5
 30
0.0
 40
1.5
  0
CIRCLE
  8
3mmHole
 10
186.0
 20
196.5
 30
0.0
 40
1.5
  0
CIRCLE
  8
3mmHole
 10
175.5
 20
196.5
 30
0.0
 40
1.5
  0
CIRCLE
  8
3mmHole
 10
170.5
 20
145.0
 30
0.0
 40
1.5
  0
CIRCLE
  8
3mmHole
 10
255.0
 20
165.000000000001
 30
0.0
 40
1.5
  0
CIRCLE
  8
3mmHole
 10
249.0
 20
148.03
 30
0.0
 40
1.5
  0
CIRCLE
  8
3mmHole
 10
274.030094691108
 20
146.191112243892
 30
0.0
 40
1.5
  0
CIRCLE
  8
3mmHole
 10
280.030094691109
 20
163.161112243892
 30
0.0
 40
1.5
  0
CIRCLE
  8
3mmHole
 10
114.370898299916
 20
246.982882980846
 30
0.0
 40
1.5
  0
CIRCLE
  8
3mmHole
 10
85.370898299916
 20
246.982882980846
 30
0.0
 40
1.5
  0
CIRCLE
  8
3mmHole
 10
267.0
 20
164.000000000001
 30
0.0
 40
1.5
  0
CIRCLE
  8
3mmHole
 10
261.0
 20
147.03
 30
0.0
 40
1.5
  0
CIRCLE
  8
3mmHole
 10
96.0
 20
201.0
 30
0.0
 40
1.5
  0
CIRCLE
  8
3mmHole
 10
96.0
 20
187.0
 30
0.0
 40
1.5
  0
CIRCLE
  8
3mmHole
 10
71.0
 20
201.0
 30
0.0
 40
1.5
  0
CIRCLE
  8
3mmHole
 10
71.0
 20
187.0
 30
0.0
 40
1.5
  0
CIRCLE
  8
3mmHole
 10
96.0
 20
170.116042153713
 30
0.0
 40
1.5
  0
CIRCLE
  8
3mmHole
 10
96.0
 20
156.116042153713
 30
0.0
 40
1.5
  0
CIRCLE
  8
3mmHole
 10
71.0
 20
170.116042153713
 30
0.0
 40
1.5
  0
CIRCLE
  8
3mmHole
 10
71.0
 20
156.116042153713
 30
0.0
 40
1.5
  0
CIRCLE
  8
3mmHole
 10
115.370898299916
 20
284.982882980846
 30
0.0
 40
1.5
  0
CIRCLE
  8
3mmHole
 10
86.370898299916
 20
284.982882980846
 30
0.0
 40
1.5
  0
CIRCLE
  8
3mmHole
 10
149.178974837853
 20
140.397595098968
 30
0.0
 40
1.5
  0
CIRCLE
  8
3mmHole
 10
137.878974837853
 20
140.397595098968
 30
0.0
 40
1.5
  0
CIRCLE
  8
3mmHole
 10
167.865735937481
 20
118.534621325773
 30
0.0
 40
1.5
  0
CIRCLE
  8
3mmHole
 10
167.865735937481
 20
128.534621325773
 30
0.0
 40
1.5
  0
CIRCLE
  8
3mmHole
 10
196.365735937481
 20
118.534621325773
 30
0.0
 40
1.5
  0
CIRCLE
  8
3mmHole
 10
196.365735937481
 20
128.534621325773
 30
0.0
 40
1.5
  0
CIRCLE
  8
3mmHole
 10
28.365735937481
 20
123.834621325773
 30
0.0
 40
1.5
  0
CIRCLE
  8
3mmHole
 10
28.365735937481
 20
133.834621325773
 30
0.0
 40
1.5
  0
CIRCLE
  8
3mmHole
 10
56.865735937481
 20
123.834621325773
 30
0.0
 40
1.5
  0
CIRCLE
  8
3mmHole
 10
56.865735937481
 20
133.834621325773
 30
0.0
 40
1.5
  0
CIRCLE
  8
3mmHole
 10
22.1167774786046
 20
86.4808732851971
 30
0.0
 40
1.5
  0
CIRCLE
  8
3mmHole
 10
69.6332220004753
 20
101.919902005311
 30
0.0
 40
1.5
  0
CIRCLE
  8
3mmHole
 10
137.425071718311
 20
79.7140851059757
 30
0.0
 40
1.5
  0
CIRCLE
  8
3mmHole
 10
119.086937507646
 20
92.4198618559484
 30
0.0
 40
1.5
  0
CIRCLE
  8
3mmHole
 10
137.425071718311
 20
90.9140851059756
 30
0.0
 40
1.5
  0
CIRCLE
  8
3mmHole
 10
150.658366352236
 20
91.8274342475368
 30
0.0
 40
1.5
  0
CIRCLE
  8
3mmHole
 10
107.578974837853
 20
107.499010265578
 30
0.0
 40
1.5
  0
CIRCLE
  8
3mmHole
 10
118.878974837853
 20
107.499010265578
 30
0.0
 40
1.5
  0
CIRCLE
  8
3mmHole
 10
194.509506141695
 20
93.4808732224301
 30
0.0
 40
1.5
  0
CIRCLE
  8
3mmHole
 10
242.025950663566
 20
108.919901942544
 30
0.0
 40
1.5
  0
CIRCLE
  8
3mmHole
 10
266.328403582144
 20
111.453655062625
 30
0.0
 40
1.5
  0
CIRCLE
  8
3mmHole
 10
278.024854684366
 20
97.7725026399174
 30
0.0
 40
1.5
  0
CIRCLE
  8
5mmHole
 10
144.0
 20
194.0
 30
0.0
 40
2.5
  0
CIRCLE
  8
5mmHole
 10
170.69579322451
 20
96.6630095839568
 30
0.0
 40
2.5
  0
CIRCLE
  8
5mmHole
 10
171.0
 20
47.0
 30
0.0
 40
2.5
  0
CIRCLE
  8
5mmHole
 10
110.878974837853
 20
133.497595098968
 30
0.0
 40
2.5
  0
CIRCLE
  8
5.5mmHoleNoCut
 10
22.1167774786046
 20
36.5191268403369
 30
0.0
 40
2.75
  0
CIRCLE
  8
5.5mmHoleNoCut
 10
69.6332220004753
 20
21.0800981202229
 30
0.0
 40
2.75
  0
CIRCLE
  8
5.5mmHoleNoCut
 10
22.1167774786046
 20
86.4808732851971
 30
0.0
 40
2.75
  0
CIRCLE
  8
5.5mmHoleNoCut
 10
69.6332220004753
 20
101.919902005311
 30
0.0
 40
2.75
  0
CIRCLE
  8
5.5mmHoleNoCut
 10
98.9999997395399
 20
61.500000062767
 30
0.0
 40
2.75
  0
CIRCLE
  8
5.5mmHoleNoCut
 10
41.9999997395399
 20
56.1250000627669
 30
0.0
 40
2.75
  0
CIRCLE
  8
5.5mmHoleNoCut
 10
41.9999997395399
 20
66.6250000627669
 30
0.0
 40
2.75
  0
CIRCLE
  8
5.5mmHoleNoCut
 10
89.99999973954
 20
66.6250000627669
 30
0.0
 40
2.75
  0
CIRCLE
  8
5.5mmHoleNoCut
 10
89.99999973954
 20
56.1250000627669
 30
0.0
 40
2.75
  0
CIRCLE
  8
5.5mmHoleNoCut
 10
194.509506141695
 20
43.5191267775699
 30
0.0
 40
2.75
  0
CIRCLE
  8
5.5mmHoleNoCut
 10
194.509506141695
 20
93.4808732224301
 30
0.0
 40
2.75
  0
CIRCLE
  8
5.5mmHoleNoCut
 10
242.025950663566
 20
108.919901942544
 30
0.0
 40
2.75
  0
CIRCLE
  8
5.5mmHoleNoCut
 10
271.39272840263
 20
68.5
 30
0.0
 40
2.75
  0
CIRCLE
  8
5.5mmHoleNoCut
 10
242.025950663566
 20
28.080098057456
 30
0.0
 40
2.75
  0
CIRCLE
  8
8mmHole
 10
23.0
 20
163.116042153713
 30
0.0
 40
4.0
  0
CIRCLE
  8
8mmHole
 10
23.0
 20
194.0
 30
0.0
 40
4.0
  0
CIRCLE
  8
8mmHole
 10
144.0
 20
163.116042153713
 30
0.0
 40
4.0
  0
POLYLINE
  8
InProfile
 66
     1
 10
0.0
 20
0.0
 30
0.0
 70
     1
  0
VERTEX
  8
InProfile
 10
19.3342476842456
 20
254.914971423556
 42
0.0
  0
VERTEX
  8
InProfile
 10
19.3342476842456
 20
263.914971423556
 42
0.0
  0
VERTEX
  8
InProfile
 10
15.8342476842456
 20
263.914971423556
 42
0.0
  0
VERTEX
  8
InProfile
 10
15.8342476842456
 20
266.414971423556
 42
0.0
  0
VERTEX
  8
InProfile
 10
19.3342476842456
 20
266.414971423556
 42
0.0
  0
VERTEX
  8
InProfile
 10
19.3342476842456
 20
275.414971423556
 42
0.0
  0
VERTEX
  8
InProfile
 10
60.3342476842456
 20
275.414971423556
 42
0.0
  0
VERTEX
  8
InProfile
 10
60.3342476842456
 20
266.414971423556
 42
0.0
  0
VERTEX
  8
InProfile
 10
63.8342476842456
 20
266.414971423556
 42
0.0
  0
VERTEX
  8
InProfile
 10
63.8342476842456
 20
263.914971423556
 42
0.0
  0
VERTEX
  8
InProfile
 10
60.3342476842456
 20
263.914971423556
 42
0.0
  0
VERTEX
  8
InProfile
 10
60.3342476842456
 20
254.914971423556
 42
0.0
  0
SEQEND
  0
POLYLINE
  8
InProfile
 66
     1
 10
0.0
 20
0.0
 30
0.0
 70
     1
  0
VERTEX
  8
InProfile
 10
141.334247684245
 20
254.914971423556
 42
0.0
  0
VERTEX
  8
InProfile
 10
141.334247684245
 20
263.914971423556
 42
0.0
  0
VERTEX
  8
InProfile
 10
137.834247684245
 20
263.914971423556
 42
0.0
  0
VERTEX
  8
InProfile
 10
137.834247684245
 20
266.414971423556
 42
0.0
  0
VERTEX
  8
InProfile
 10
141.334247684245
 20
266.414971423556
 42
0.0
  0
VERTEX
  8
InProfile
 10
141.334247684245
 20
275.414971423556
 42
0.0
  0
VERTEX
  8
InProfile
 10
182.334247684246
 20
275.414971423556
 42
0.0
  0
VERTEX
  8
InProfile
 10
182.334247684246
 20
266.414971423556
 42
0.0
  0
VERTEX
  8
InProfile
 10
185.834247684246
 20
266.414971423556
 42
0.0
  0
VERTEX
  8
InProfile
 10
185.834247684246
 20
263.914971423556
 42
0.0
  0
VERTEX
  8
InProfile
 10
182.334247684246
 20
263.914971423556
 42
0.0
  0
VERTEX
  8
InProfile
 10
182.334247684246
 20
254.914971423556
 42
0.0
  0
SEQEND
  0
POLYLINE
  8
InProfile
 66
     1
 10
0.0
 20
0.0
 30
0.0
 70
     1
  0
VERTEX
  8
InProfile
 10
17.84896730056
 20
217.61654585007
 42
0.0
  0
VERTEX
  8
InProfile
 10
17.84896730056
 20
226.61654585007
 42
0.0
  0
VERTEX
  8
InProfile
 10
14.3489673005599
 20
226.61654585007
 42
0.0
  0
VERTEX
  8
InProfile
 10
14.3489673005599
 20
229.11654585007
 42
0.0
  0
VERTEX
  8
InProfile
 10
17.84896730056
 20
229.11654585007
 42
0.0
  0
VERTEX
  8
InProfile
 10
17.84896730056
 20
238.11654585007
 42
0.0
  0
VERTEX
  8
InProfile
 10
58.8489673005599
 20
238.11654585007
 42
0.0
  0
VERTEX
  8
InProfile
 10
58.8489673005599
 20
229.11654585007
 42
0.0
  0
VERTEX
  8
InProfile
 10
62.3489673005599
 20
229.11654585007
 42
0.0
  0
VERTEX
  8
InProfile
 10
62.3489673005599
 20
226.61654585007
 42
0.0
  0
VERTEX
  8
InProfile
 10
58.8489673005599
 20
226.61654585007
 42
0.0
  0
VERTEX
  8
InProfile
 10
58.8489673005599
 20
217.61654585007
 42
0.0
  0
SEQEND
  0
POLYLINE
  8
InProfile
 66
     1
 10
0.0
 20
0.0
 30
0.0
 70
     1
  0
VERTEX
  8
InProfile
 10
139.84896730056
 20
217.61654585007
 42
0.0
  0
VERTEX
  8
InProfile
 10
139.84896730056
 20
226.61654585007
 42
0.0
  0
VERTEX
  8
InProfile
 10
136.34896730056
 20
226.61654585007
 42
0.0
  0
VERTEX
  8
InProfile
 10
136.34896730056
 20
229.11654585007
 42
0.0
  0
VERTEX
  8
InProfile
 10
139.84896730056
 20
229.11654585007
 42
0.0
  0
VERTEX
  8
InProfile
 10
139.84896730056
 20
238.11654585007
 42
0.0
  0
VERTEX
  8
InProfile
 10
180.84896730056
 20
238.11654585007
 42
0.0
  0
VERTEX
  8
InProfile
 10
180.84896730056
 20
229.11654585007
 42
0.0
  0
VERTEX
  8
InProfile
 10
184.34896730056
 20
229.11654585007
 42
0.0
  0
VERTEX
  8
InProfile
 10
184.34896730056
 20
226.61654585007
 42
0.0
  0
VERTEX
  8
InProfile
 10
180.84896730056
 20
226.61654585007
 42
0.0
  0
VERTEX
  8
InProfile
 10
180.84896730056
 20
217.61654585007
 42
0.0
  0
SEQEND
  0
POLYLINE
  8
InProfile
 66
     1
 10
0.0
 20
0.0
 30
0.0
 70
     1
  0
VERTEX
  8
InProfile
 10
212.5
 20
263.0
 42
0.0
  0
VERTEX
  8
InProfile
 10
216.5
 20
263.0
 42
0.0
  0
VERTEX
  8
InProfile
 10
216.5
 20
277.0
 42
0.0
  0
VERTEX
  8
InProfile
 10
212.5
 20
277.0
 42
0.0
  0
SEQEND
  0
POLYLINE
  8
InProfile
 66
     1
 10
0.0
 20
0.0
 30
0.0
 70
     1
  0
VERTEX
  8
InProfile
 10
212.5
 20
255.0
 42
0.0
  0
VERTEX
  8
InProfile
 10
216.5
 20
255.0
 42
0.0
  0
VERTEX
  8
InProfile
 10
216.5
 20
241.0
 42
0.0
  0
VERTEX
  8
InProfile
 10
212.5
 20
241.0
 42
0.0
  0
SEQEND
  0
POLYLINE
  8
InProfile
 66
     1
 10
0.0
 20
0.0
 30
0.0
 70
     1
  0
VERTEX
  8
InProfile
 10
212.5
 20
233.0
 42
0.0
  0
VERTEX
  8
InProfile
 10
216.5
 20
233.0
 42
0.0
  0
VERTEX
  8
InProfile
 10
216.5
 20
219.0
 42
0.0
  0
VERTEX
  8
InProfile
 10
212.5
 20
219.0
 42
0.0
  0
SEQEND
  0
CIRCLE
  8
InProfile
 10
240.0
 20
248.0
 30
0.0
 40
4.0
  0
POLYLINE
  8
InProfile
 66
     1
 10
0.0
 20
0.0
 30
0.0
 70
     1
  0
VERTEX
  8
InProfile
 10
263.5
 20
277.0
 42
0.0
  0
VERTEX
  8
InProfile
 10
263.5
 20
263.0
 42
0.0
  0
VERTEX
  8
InProfile
 10
267.5
 20
263.0
 42
0.0
  0
VERTEX
  8
InProfile
 10
267.5
 20
277.0
 42
0.0
  0
SEQEND
  0
POLYLINE
  8
InProfile
 66
     1
 10
0.0
 20
0.0
 30
0.0
 70
     1
  0
VERTEX
  8
InProfile
 10
263.5
 20
255.0
 42
0.0
  0
VERTEX
  8
InProfile
 10
267.5
 20
255.0
 42
0.0
  0
VERTEX
  8
InProfile
 10
267.5
 20
241.0
 42
0.0
  0
VERTEX
  8
InProfile
 10
263.5
 20
241.0
 42
0.0
  0
SEQEND
  0
POLYLINE
  8
InProfile
 66
     1
 10
0.0
 20
0.0
 30
0.0
 70
     1
  0
VERTEX
  8
InProfile
 10
267.5
 20
219.0
 42
0.0
  0
VERTEX
  8
InProfile
 10
263.5
 20
219.0
 42
0.0
  0
VERTEX
  8
InProfile
 10
263.5
 20
233.0
 42
0.0
  0
VERTEX
  8
InProfile
 10
267.5
 20
233.0
 42
0.0
  0
SEQEND
  0
POLYLINE
  8
InProfile
 66
     1
 10
0.0
 20
0.0
 30
0.0
 70
     1
  0
VERTEX
  8
InProfile
 10
213.022244755778
 20
183.51766554194
 42
0.0
  0
VERTEX
  8
InProfile
 10
222.022244755778
 20
183.51766554194
 42
0.0
  0
VERTEX
  8
InProfile
 10
222.022244755778
 20
187.01766554194
 42
0.0
  0
VERTEX
  8
InProfile
 10
224.522244755778
 20
187.01766554194
 42
0.0
  0
VERTEX
  8
InProfile
 10
224.522244755778
 20
183.51766554194
 42
0.0
  0
VERTEX
  8
InProfile
 10
233.522244755778
 20
183.51766554194
 42
0.0
  0
VERTEX
  8
InProfile
 10
233.522244755778
 20
142.51766554194
 42
0.0
  0
VERTEX
  8
InProfile
 10
224.522244755778
 20
142.51766554194
 42
0.0
  0
VERTEX
  8
InProfile
 10
224.522244755778
 20
139.01766554194
 42
0.0
  0
VERTEX
  8
InProfile
 10
222.022244755778
 20
139.01766554194
 42
0.0
  0
VERTEX
  8
InProfile
 10
222.022244755778
 20
142.51766554194
 42
0.0
  0
VERTEX
  8
InProfile
 10
213.022244755778
 20
142.51766554194
 42
0.0
  0
SEQEND
  0
POLYLINE
  8
InProfile
 66
     1
 10
0.0
 20
0.0
 30
0.0
 70
     1
  0
VERTEX
  8
InProfile
 10
170.5
 20
193.0
 42
0.0
  0
VERTEX
  8
InProfile
 10
179.5
 20
193.0
 42
0.0
  0
VERTEX
  8
InProfile
 10
179.5
 20
196.5
 42
0.0
  0
VERTEX
  8
InProfile
 10
182.0
 20
196.5
 42
0.0
  0
VERTEX
  8
InProfile
 10
182.0
 20
193.0
 42
0.0
  0
VERTEX
  8
InProfile
 10
191.0
 20
193.0
 42
0.0
  0
VERTEX
  8
InProfile
 10
191.0
 20
152.0
 42
0.0
  0
VERTEX
  8
InProfile
 10
182.0
 20
152.0
 42
0.0
  0
VERTEX
  8
InProfile
 10
182.0
 20
148.5
 42
0.0
  0
VERTEX
  8
InProfile
 10
179.5
 20
148.5
 42
0.0
  0
VERTEX
  8
InProfile
 10
179.5
 20
152.0
 42
0.0
  0
VERTEX
  8
InProfile
 10
170.5
 20
152.0
 42
0.0
  0
SEQEND
  0
POLYLINE
  8
InProfile
 66
     1
 10
0.0
 20
0.0
 30
0.0
 70
     1
  0
VERTEX
  8
InProfile
 10
149.878974837853
 20
133.797595098968
 42
0.0
  0
VERTEX
  8
InProfile
 10
140.878974837853
 20
133.797595098968
 42
0.0
  0
VERTEX
  8
InProfile
 10
140.878974837853
 20
137.797595098968
 42
0.0
  0
VERTEX
  8
InProfile
 10
149.878974837853
 20
137.797595098968
 42
0.0
  0
SEQEND
  0
POLYLINE
  8
InProfile
 66
     1
 10
0.0
 20
0.0
 30
0.0
 70
     1
  0
VERTEX
  8
InProfile
 10
82.0
 20
139.75
 42
0.0
  0
VERTEX
  8
InProfile
 10
86.0
 20
139.75
 42
0.0
  0
VERTEX
  8
InProfile
 10
86.0
 20
132.0
 42
0.0
  0
VERTEX
  8
InProfile
 10
82.0
 20
132.0
 42
0.0
  0
SEQEND
  0
CIRCLE
  8
InProfile
 10
84.0
 20
126.0
 30
0.0
 40
3.0
  0
POLYLINE
  8
InProfile
 66
     1
 10
0.0
 20
0.0
 30
0.0
 70
     1
  0
VERTEX
  8
InProfile
 10
82.0
 20
120.0
 42
0.0
  0
VERTEX
  8
InProfile
 10
86.0
 20
120.0
 42
0.0
  0
VERTEX
  8
InProfile
 10
86.0
 20
112.25
 42
0.0
  0
VERTEX
  8
InProfile
 10
82.0
 20
112.25
 42
0.0
  0
SEQEND
  0
POLYLINE
  8
InProfile
 66
     1
 10
0.0
 20
0.0
 30
0.0
 70
     1
  0
VERTEX
  8
InProfile
 10
106.878974837853
 20
114.099010265578
 42
0.0
  0
VERTEX
  8
InProfile
 10
115.878974837853
 20
114.099010265578
 42
0.0
  0
VERTEX
  8
InProfile
 10
115.878974837853
 20
110.099010265578
 42
0.0
  0
VERTEX
  8
InProfile
 10
106.878974837853
 20
110.099010265578
 42
0.0
  0
SEQEND
  0
CIRCLE
  8
InProfile
 10
145.878974837853
 20
114.399010265578
 30
0.0
 40
4.0
  0
CIRCLE
  8
InProfile
 10
150.658366352236
 20
62.8274342475368
 30
0.0
 40
3.0
  0
POLYLINE
  8
InProfile
 66
     1
 10
0.0
 20
0.0
 30
0.0
 70
     1
  0
VERTEX
  8
InProfile
 10
151.166697543094
 20
34.1019136107927
 42
0.0
  0
VERTEX
  8
InProfile
 10
128.466697543094
 20
34.1019136107927
 42
0.0
  0
VERTEX
  8
InProfile
 10
128.466697543094
 20
21.2019136107927
 42
0.0
  0
VERTEX
  8
InProfile
 10
151.166697543094
 20
21.2019136107927
 42
0.0
  0
SEQEND
  0
CIRCLE
  8
InProfile
 10
56.4999997395399
 20
61.500000062767
 30
0.0
 40
11.5
  0
CIRCLE
  8
InProfile
 10
154.476328929677
 20
45.9993079671386
 30
0.0
 40
3.0
  0
POLYLINE
  8
InProfile
 66
     1
 10
0.0
 20
0.0
 30
0.0
 70
     1
  0
VERTEX
  8
InProfile
 10
25.2703315386644
 20
201.566677274083
 42
0.1467891709092
  0
VERTEX
  8
InProfile
 10
20.7296684613356
 20
201.566677274083
 42
0.7578969007394
  0
VERTEX
  8
InProfile
 10
21.0000000000001
 20
200.603861728899
 42
-0.1481049953068
  0
VERTEX
  8
InProfile
 10
25.0
 20
200.603861728899
 42
0.7578969007394
  0
SEQEND
  0
POLYLINE
  8
InProfile
 66
     1
 10
0.0
 20
0.0
 30
0.0
 70
     1
  0
VERTEX
  8
InProfile
 10
15.4333227259171
 20
196.270331538664
 42
0.1467891709092
  0
VERTEX
  8
InProfile
 10
15.433322725917
 20
191.729668461335
 42
0.7578969007394
  0
VERTEX
  8
InProfile
 10
16.3961382711006
 20
192.0
 42
-0.1481049953068
  0
VERTEX
  8
InProfile
 10
16.3961382711005
 20
196.0
 42
0.7578969007394
  0
SEQEND
  0
POLYLINE
  8
InProfile
 66
     1
 10
0.0
 20
0.0
 30
0.0
 70
     1
  0
VERTEX
  8
InProfile
 10
30.5666772740829
 20
191.729668461335
 42
0.1467891709092
  0
VERTEX
  8
InProfile
 10
30.5666772740828
 20
196.270331538664
 42
0.7578969007394
  0
VERTEX
  8
InProfile
 10
29.6038617288993
 20
196.0
 42
-0.1481049953068
  0
VERTEX
  8
InProfile
 10
29.6038617288993
 20
192.0
 42
0.7578969007394
  0
SEQEND
  0
POLYLINE
  8
InProfile
 66
     1
 10
0.0
 20
0.0
 30
0.0
 70
     1
  0
VERTEX
  8
InProfile
 10
20.7296684613356
 20
186.433322725917
 42
0.1467891709092
  0
VERTEX
  8
InProfile
 10
25.2703315386644
 20
186.433322725917
 42
0.7578969007394
  0
VERTEX
  8
InProfile
 10
24.9999999999999
 20
187.396138271101
 42
-0.1481049953068
  0
VERTEX
  8
InProfile
 10
21.0
 20
187.396138271101
 42
0.7578969007394
  0
SEQEND
  0
POLYLINE
  8
outProfile
 66
     1
 10
0.0
 20
0.0
 30
0.0
 70
     1
  0
VERTEX
  8
outProfile
 10
197.0
 20
187.5
 42
0.0
  0
VERTEX
  8
outProfile
 10
201.0
 20
187.5
 42
0.0
  0
VERTEX
  8
outProfile
 10
201.0
 20
201.5
 42
0.0
  0
VERTEX
  8
outProfile
 10
197.0
 20
201.5
 42
0.0
  0
VERTEX
  8
outProfile
 10
197.0
 20
206.5
 42
0.0
  0
VERTEX
  8
outProfile
 10
174.0
 20
206.5
 42
0.4142135623731
  0
VERTEX
  8
outProfile
 10
164.0
 20
196.5
 42
0.0
  0
VERTEX
  8
outProfile
 10
164.0
 20
148.5
 42
0.4142135623731
  0
VERTEX
  8
outProfile
 10
174.0
 20
138.5
 42
0.0
  0
VERTEX
  8
outProfile
 10
197.0
 20
138.5
 42
0.0
  0
VERTEX
  8
outProfile
 10
197.0
 20
143.5
 42
0.0
  0
VERTEX
  8
outProfile
 10
201.0
 20
143.5
 42
0.0
  0
VERTEX
  8
outProfile
 10
201.0
 20
157.5
 42
0.0
  0
VERTEX
  8
outProfile
 10
197.0
 20
157.5
 42
0.0
  0
VERTEX
  8
outProfile
 10
197.0
 20
165.5
 42
0.0
  0
VERTEX
  8
outProfile
 10
201.0
 20
165.5
 42
0.0
  0
VERTEX
  8
outProfile
 10
201.0
 20
179.5
 42
0.0
  0
VERTEX
  8
outProfile
 10
197.0
 20
179.5
 42
0.0
  0
SEQEND
  0
POLYLINE
  8
outProfile
 66
     1
 10
0.0
 20
0.0
 30
0.0
 70
     1
  0
VERTEX
  8
outProfile
 10
13.8657359374811
 20
129.534621325773
 42
0.0
  0
VERTEX
  8
outProfile
 10
9.8657359374811
 20
129.534621325773
 42
0.0
  0
VERTEX
  8
outProfile
 10
9.8657359374811
 20
120.534621325773
 42
0.0
  0
VERTEX
  8
outProfile
 10
13.8657359374811
 20
120.534621325773
 42
0.0
  0
VERTEX
  8
outProfile
 10
13.8657359374811
 20
115.534621325773
 42
0.0
  0
VERTEX
  8
outProfile
 10
61.8657359374812
 20
115.534621325773
 42
0.0
  0
VERTEX
  8
outProfile
 10
61.8657359374812
 20
120.534621325773
 42
0.0
  0
VERTEX
  8
outProfile
 10
65.8657359374812
 20
120.534621325773
 42
0.0
  0
VERTEX
  8
outProfile
 10
65.8657359374812
 20
129.534621325773
 42
0.0
  0
VERTEX
  8
outProfile
 10
61.8657359374812
 20
129.534621325773
 42
0.0
  0
VERTEX
  8
outProfile
 10
61.8657359374812
 20
134.534621325773
 42
0.4142135623731
  0
VERTEX
  8
outProfile
 10
53.8657359374812
 20
142.534621325773
 42
0.0
  0
VERTEX
  8
outProfile
 10
21.8657359374812
 20
142.534621325773
 42
0.4142135623731
  0
VERTEX
  8
outProfile
 10
13.8657359374811
 20
134.534621325773
 42
0.0
  0
SEQEND
  0
POLYLINE
  8
outProfile
 66
     1
 10
0.0
 20
0.0
 30
0.0
 70
     1
  0
VERTEX
  8
outProfile
 10
94.0
 20
137.75
 42
0.0
  0
VERTEX
  8
outProfile
 10
94.0
 20
114.25
 42
0.0
  0
VERTEX
  8
outProfile
 10
86.0
 20
106.25
 42
0.0
  0
VERTEX
  8
outProfile
 10
82.0
 20
106.25
 42
0.0
  0
VERTEX
  8
outProfile
 10
74.0
 20
114.25
 42
0.0
  0
VERTEX
  8
outProfile
 10
74.0
 20
137.75
 42
0.0
  0
VERTEX
  8
outProfile
 10
81.9999999999999
 20
145.75
 42
0.0
  0
VERTEX
  8
outProfile
 10
86.0
 20
145.75
 42
0.0
  0
SEQEND
  0
POLYLINE
  8
outProfile
 66
     1
 10
0.0
 20
0.0
 30
0.0
 70
     1
  0
VERTEX
  8
outProfile
 10
101.878974837853
 20
105.399010265578
 42
0.0
  0
VERTEX
  8
outProfile
 10
101.878974837853
 20
115.399010265578
 42
-0.4142135623731
  0
VERTEX
  8
outProfile
 10
103.878974837853
 20
117.399010265578
 42
0.0
  0
VERTEX
  8
outProfile
 10
120.280090086848
 20
117.399010265578
 42
0.0973816798454
  0
VERTEX
  8
outProfile
 10
127.852444186546
 20
118.88794726561
 42
0.0
  0
VERTEX
  8
outProfile
 10
141.106796579285
 20
124.309929227433
 42
-1.2539251117003
  0
VERTEX
  8
outProfile
 10
145.878974837853
 20
103.399010265578
 42
0.0
  0
VERTEX
  8
outProfile
 10
103.878974837853
 20
103.399010265578
 42
-0.4142135623731
  0
SEQEND
  0
POLYLINE
  8
outProfile
 66
     1
 10
0.0
 20
0.0
 30
0.0
 70
     1
  0
VERTEX
  8
outProfile
 10
154.878974837853
 20
142.497595098968
 42
0.0
  0
VERTEX
  8
outProfile
 10
154.878974837853
 20
132.497595098968
 42
-0.4142135623731
  0
VERTEX
  8
outProfile
 10
152.878974837853
 20
130.497595098968
 42
0.0
  0
VERTEX
  8
outProfile
 10
136.477859588858
 20
130.497595098968
 42
0.0973816798454
  0
VERTEX
  8
outProfile
 10
128.905505489161
 20
129.008658098936
 42
0.0
  0
VERTEX
  8
outProfile
 10
115.651153096421
 20
123.586676137113
 42
-1.2539251117003
  0
VERTEX
  8
outProfile
 10
110.878974837853
 20
144.497595098968
 42
0.0
  0
VERTEX
  8
outProfile
 10
152.878974837853
 20
144.497595098968
 42
-0.4142135623731
  0
SEQEND
  0
POLYLINE
  8
outProfile
 66
     1
 10
0.0
 20
0.0
 30
0.0
 70
     1
  0
VERTEX
  8
outProfile
 10
166.865735937481
 20
113.534621325773
 42
0.0
  0
VERTEX
  8
outProfile
 10
197.365735937481
 20
113.534621325773
 42
0.4142135623731
  0
VERTEX
  8
outProfile
 10
200.365735937481
 20
116.534621325773
 42
0.0
  0
VERTEX
  8
outProfile
 10
200.365735937481
 20
130.534621264182
 42
0.4142135623731
  0
VERTEX
  8
outProfile
 10
197.365735937481
 20
133.534621264182
 42
0.0
  0
VERTEX
  8
outProfile
 10
166.865735937481
 20
133.534621264182
 42
0.4142135623731
  0
VERTEX
  8
outProfile
 10
163.865735937481
 20
130.534621264182
 42
0.0
  0
VERTEX
  8
outProfile
 10
163.865735937481
 20
116.534621325773
 42
0.4142135623731
  0
SEQEND
  0
POLYLINE
  8
outProfile
 66
     1
 10
0.0
 20
0.0
 30
0.0
 70
     1
  0
VERTEX
  8
outProfile
 10
140.955071718311
 20
79.6807198075395
 42
0.0
  0
VERTEX
  8
outProfile
 10
140.955071718311
 20
91.2474504044109
 42
0.1727600255708
  0
VERTEX
  8
outProfile
 10
139.941990124866
 20
94.0919890358993
 42
0.0
  0
VERTEX
  8
outProfile
 10
136.783233431432
 20
97.9640851059752
 42
0.0
  0
VERTEX
  8
outProfile
 10
134.455071718311
 20
97.9640851059752
 42
0.0
  0
VERTEX
  8
outProfile
 10
134.455071718311
 20
72.9640851059752
 42
0.0
  0
VERTEX
  8
outProfile
 10
136.783233431431
 20
72.9640851059752
 42
0.0
  0
VERTEX
  8
outProfile
 10
139.941990124866
 20
76.836181176051
 42
0.1727600255708
  0
SEQEND
  0
POLYLINE
  8
outProfile
 66
     1
 10
0.0
 20
0.0
 30
0.0
 70
     1
  0
VERTEX
  8
outProfile
 10
124.495780735252
 20
55.3024141657578
 42
0.3682281136406
  0
VERTEX
  8
outProfile
 10
122.538136877082
 20
55.8598165804651
 42
-0.0177775312225
  0
VERTEX
  8
outProfile
 10
121.992330311463
 20
55.6337360988469
 42
0.3682281136406
  0
VERTEX
  8
outProfile
 10
121.002210094474
 20
53.8553298250727
 42
0.0
  0
VERTEX
  8
outProfile
 10
121.395067468345
 20
51.893469677347
 42
-0.0232304710375
  0
VERTEX
  8
outProfile
 10
121.427992214865
 20
51.677347546453
 42
-0.0031985852304
  0
VERTEX
  8
outProfile
 10
121.430948878294
 20
51.6473760734963
 42
-1.096434694713
  0
VERTEX
  8
outProfile
 10
116.742926136996
 20
51.6473760734963
 42
-0.0031985852304
  0
VERTEX
  8
outProfile
 10
116.745882800425
 20
51.677347546453
 42
-0.0232304710375
  0
VERTEX
  8
outProfile
 10
116.778807548073
 20
51.8934696795917
 42
0.0
  0
VERTEX
  8
outProfile
 10
117.156332278814
 20
53.778761311902
 42
-0.7691862558679
  0
VERTEX
  8
outProfile
 10
115.981937507646
 20
72.7492257812114
 42
0.0
  0
VERTEX
  8
outProfile
 10
115.981937507646
 20
92.4198618559484
 42
-1.0
  0
VERTEX
  8
outProfile
 10
122.191937507646
 20
92.4198618559484
 42
0.0
  0
VERTEX
  8
outProfile
 10
122.191937507645
 20
71.128560621302
 42
-0.0113354079695
  0
VERTEX
  8
outProfile
 10
122.53813688039
 20
70.9799071346119
 42
0.3682281136406
  0
VERTEX
  8
outProfile
 10
124.49578073473
 20
71.5373095483111
 42
0.0
  0
VERTEX
  8
outProfile
 10
125.60523323344
 20
73.202346275885
 42
-0.0232304710375
  0
VERTEX
  8
outProfile
 10
125.734773346226
 20
73.3784490117379
 42
-0.0031985852304
  0
VERTEX
  8
outProfile
 10
125.753875701236
 20
73.4017327202678
 42
-1.096434694713
  0
VERTEX
  8
outProfile
 10
129.068808371964
 20
70.0868000495397
 42
-0.0031985852304
  0
VERTEX
  8
outProfile
 10
129.045524663434
 20
70.0676976945299
 42
-0.0232304710375
  0
VERTEX
  8
outProfile
 10
128.869421927989
 20
69.9381575837741
 42
0.0
  0
VERTEX
  8
outProfile
 10
127.204385200833
 20
68.8287050835567
 42
0.3682281136406
  0
VERTEX
  8
outProfile
 10
126.646982783129
 20
66.8710612253857
 42
-0.0177775312225
  0
VERTEX
  8
outProfile
 10
126.873063267743
 20
66.325254659767
 42
0.3682281136406
  0
VERTEX
  8
outProfile
 10
128.651469541518
 20
65.3351344427774
 42
0.0
  0
VERTEX
  8
outProfile
 10
130.859423290097
 20
65.7638732265972
 42
-1.096434694713
  0
VERTEX
  8
outProfile
 10
130.859423290097
 20
61.0758504853
 42
0.0
  0
VERTEX
  8
outProfile
 10
128.651469539825
 20
61.5045892728887
 42
0.3682281136406
  0
VERTEX
  8
outProfile
 10
126.873063265372
 20
60.5144690529328
 42
-0.0177775312225
  0
VERTEX
  8
outProfile
 10
126.646982786308
 20
59.9686624862005
 42
0.3682281136406
  0
VERTEX
  8
outProfile
 10
127.204385200007
 20
58.0110186318603
 42
0.0
  0
VERTEX
  8
outProfile
 10
128.869421927581
 20
56.9015661331511
 42
-0.0232304710375
  0
VERTEX
  8
outProfile
 10
129.045524663434
 20
56.7720260203647
 42
-0.0031985852304
  0
VERTEX
  8
outProfile
 10
129.068808371964
 20
56.7529236653549
 42
-1.096434694713
  0
VERTEX
  8
outProfile
 10
125.753875701236
 20
53.4379909946268
 42
-0.0031985852304
  0
VERTEX
  8
outProfile
 10
125.734773346226
 20
53.4612747031566
 42
-0.0232304710375
  0
VERTEX
  8
outProfile
 10
125.60523323344
 20
53.6373774390096
 42
0.0
  0
SEQEND
  0
POLYLINE
  8
outProfile
 66
     1
 10
0.0
 20
0.0
 30
0.0
 70
     1
  0
VERTEX
  8
outProfile
 10
153.763366352236
 20
91.8274342475368
 42
1.0
  0
VERTEX
  8
outProfile
 10
147.553366352236
 20
91.8274342475368
 42
0.0
  0
VERTEX
  8
outProfile
 10
147.553366352236
 20
76.2573984067935
 42
0.0
  0
VERTEX
  8
outProfile
 10
146.070531893609
 20
76.2573984067936
 42
0.5644339246289
  0
VERTEX
  8
outProfile
 10
143.987646954663
 20
72.8067785901268
 42
0.0031985852304
  0
VERTEX
  8
outProfile
 10
144.001848141633
 20
72.7802200258121
 42
0.0232304710375
  0
VERTEX
  8
outProfile
 10
144.114972999917
 20
72.5931489675644
 42
0.0
  0
VERTEX
  8
outProfile
 10
145.22869726315
 20
70.9309665417917
 42
-0.3682281136406
  0
VERTEX
  8
outProfile
 10
144.994512075012
 20
68.9090307839373
 42
0.0177775312225
  0
VERTEX
  8
outProfile
 10
144.576769817339
 20
68.4912885219422
 42
-0.3682281136406
  0
VERTEX
  8
outProfile
 10
142.554834055656
 20
68.2571033332464
 42
0.0
  0
VERTEX
  8
outProfile
 10
140.892651629306
 20
69.3708275975422
 42
0.0232304710375
  0
VERTEX
  8
outProfile
 10
140.705580572186
 20
69.4839524565805
 42
0.0031985852299
  0
VERTEX
  8
outProfile
 10
140.679022007871
 20
69.4981536435507
 42
1.096434694713
  0
VERTEX
  8
outProfile
 10
138.884993374226
 20
65.1669853849188
 42
0.0031985852304
  0
VERTEX
  8
outProfile
 10
138.913814870759
 20
65.1582473996008
 42
0.0232304710375
  0
VERTEX
  8
outProfile
 10
139.126085439023
 20
65.1059595401634
 42
0.0
  0
VERTEX
  8
outProfile
 10
141.088947880649
 20
64.7181410530742
 42
-0.3682281136406
  0
VERTEX
  8
outProfile
 10
142.353078434388
 20
63.1228226328843
 42
0.0177775312225
  0
VERTEX
  8
outProfile
 10
142.353078436886
 20
62.5320458623553
 42
-0.3682281136406
  0
VERTEX
  8
outProfile
 10
141.088947880803
 20
60.9367274402606
 42
0.0
  0
VERTEX
  8
outProfile
 10
139.126085436875
 20
60.5489089527783
 42
0.0232304710375
  0
VERTEX
  8
outProfile
 10
138.913814869764
 20
60.4966210950609
 42
0.0031985852304
  0
VERTEX
  8
outProfile
 10
138.884993373231
 20
60.4878831097429
 42
1.096434694713
  0
VERTEX
  8
outProfile
 10
140.679022006876
 20
56.156714851111
 42
0.0031985852304
  0
VERTEX
  8
outProfile
 10
140.705580571191
 20
56.1709160380812
 42
0.0232304710375
  0
VERTEX
  8
outProfile
 10
140.892651629439
 20
56.284040896365
 42
0.0
  0
VERTEX
  8
outProfile
 10
142.554834055212
 20
57.3977651595979
 42
-0.3682281136406
  0
VERTEX
  8
outProfile
 10
144.576769813066
 20
57.1635799714594
 42
0.0177775312225
  0
VERTEX
  8
outProfile
 10
144.99451207783
 20
56.7458377126404
 42
-0.3682281136406
  0
VERTEX
  8
outProfile
 10
145.228697263757
 20
54.7239019521037
 42
0.0
  0
VERTEX
  8
outProfile
 10
144.114972999461
 20
53.0617195257538
 42
0.0232304710375
  0
VERTEX
  8
outProfile
 10
144.001848143192
 20
52.8746484674862
 42
0.0031985852304
  0
VERTEX
  8
outProfile
 10
143.987646956222
 20
52.8480899031714
 42
1.096434694713
  0
VERTEX
  8
outProfile
 10
148.318815214854
 20
51.0540612695261
 42
0.0031985852304
  0
VERTEX
  8
outProfile
 10
148.327553200172
 20
51.0828827660593
 42
0.0232304710375
  0
VERTEX
  8
outProfile
 10
148.379841058279
 20
51.2951533340597
 42
0.0
  0
VERTEX
  8
outProfile
 10
148.752523559962
 20
53.181408148612
 42
0.9387994472518
  0
VERTEX
  8
outProfile
 10
153.763366352236
 20
72.1567981727998
 42
0.0
  0
SEQEND
  0
POLYLINE
  8
outProfile
 66
     1
 10
0.0
 20
0.0
 30
0.0
 70
     1
  0
VERTEX
  8
outProfile
 10
157.066697543094
 20
13.6519136107926
 42
0.0
  0
VERTEX
  8
outProfile
 10
157.066697543094
 20
32.2879525801138
 42
0.1989123673797
  0
VERTEX
  8
outProfile
 10
155.748678058433
 20
35.4699330954534
 42
0.0
  0
VERTEX
  8
outProfile
 10
141.444601473018
 20
47.1388320173474
 42
0.1727600255708
  0
VERTEX
  8
outProfile
 10
138.60006284153
 20
48.1519136107927
 42
0.0
  0
VERTEX
  8
outProfile
 10
127.033332244658
 20
48.1519136107928
 42
0.1727600255708
  0
VERTEX
  8
outProfile
 10
124.18879361317
 20
47.1388320173476
 42
0.0
  0
VERTEX
  8
outProfile
 10
109.884717027754
 20
35.4699330954532
 42
0.1989123673797
  0
VERTEX
  8
outProfile
 10
108.566697543094
 20
32.2879525801138
 42
0.0
  0
VERTEX
  8
outProfile
 10
108.566697543094
 20
13.6519136107927
 42
0.4142135623731
  0
VERTEX
  8
outProfile
 10
113.066697543094
 20
9.1519136107927
 42
0.0
  0
VERTEX
  8
outProfile
 10
113.066697543094
 20
13.1519136107927
 42
0.0
  0
VERTEX
  8
outProfile
 10
119.066697543094
 20
13.1519136107927
 42
0.0
  0
VERTEX
  8
outProfile
 10
119.066697543094
 20
9.1519136107927
 42
0.0
  0
VERTEX
  8
outProfile
 10
126.816697543094
 20
9.1519136107927
 42
0.0
  0
VERTEX
  8
outProfile
 10
126.816697543094
 20
13.1519136107927
 42
0.0
  0
VERTEX
  8
outProfile
 10
138.816697543094
 20
13.1519136107927
 42
0.0
  0
VERTEX
  8
outProfile
 10
138.816697543094
 20
9.1519136107927
 42
0.0
  0
VERTEX
  8
outProfile
 10
146.566697543093
 20
9.1519136107927
 42
0.0
  0
VERTEX
  8
outProfile
 10
146.566697543093
 20
13.1519136107927
 42
0.0
  0
VERTEX
  8
outProfile
 10
152.566697543094
 20
13.1519136107927
 42
0.0
  0
VERTEX
  8
outProfile
 10
152.566697543094
 20
9.1519136107927
 42
0.4142135623731
  0
SEQEND
  0
POLYLINE
  8
outProfile
 66
     1
 10
0.0
 20
0.0
 30
0.0
 70
     1
  0
VERTEX
  8
outProfile
 10
163.370898299916
 20
29.982882980846
 42
0.0
  0
VERTEX
  8
outProfile
 10
192.370898299916
 20
29.982882980846
 42
-1.0
  0
VERTEX
  8
outProfile
 10
192.370898299916
 20
23.982882980846
 42
0.0
  0
VERTEX
  8
outProfile
 10
163.370898299916
 20
23.982882980846
 42
-1.0
  0
SEQEND
  0
POLYLINE
  8
outProfile
 66
     1
 10
0.0
 20
0.0
 30
0.0
 70
     1
  0
VERTEX
  8
outProfile
 10
163.370898299916
 20
18.982882980846
 42
0.0
  0
VERTEX
  8
outProfile
 10
192.370898299916
 20
18.982882980846
 42
-1.0
  0
VERTEX
  8
outProfile
 10
192.370898299916
 20
12.982882980846
 42
0.0
  0
VERTEX
  8
outProfile
 10
163.370898299916
 20
12.982882980846
 42
-1.0
  0
SEQEND
  0
POLYLINE
  8
outProfile
 66
     1
 10
0.0
 20
0.0
 30
0.0
 70
     1
  0
VERTEX
  8
outProfile
 10
266.480327370791
 20
117.716794783439
 42
0.0
  0
VERTEX
  8
outProfile
 10
244.82969227618
 20
130.216794783439
 42
0.0
  0
VERTEX
  8
outProfile
 10
241.57969227618
 20
124.58762965884
 42
0.0
  0
VERTEX
  8
outProfile
 10
263.230327370791
 20
112.08762965884
 42
0.0
  0
VERTEX
  8
outProfile
 10
262.480327370791
 20
110.788591553163
 42
0.0
  0
VERTEX
  8
outProfile
 10
275.829859129984
 20
95.7275100931725
 42
0.9684491971113
  0
VERTEX
  8
outProfile
 10
280.34635094542
 20
99.6726750294421
 42
0.0
  0
SEQEND
  0
POLYLINE
  8
outProfile
 66
     1
 10
0.0
 20
0.0
 30
0.0
 70
     1
  0
VERTEX
  8
outProfile
 10
285.530094691109
 20
166.161112243891
 42
0.0
  0
VERTEX
  8
outProfile
 10
285.530094691109
 20
191.161112243891
 42
0.0
  0
VERTEX
  8
outProfile
 10
279.030094691109
 20
191.161112243891
 42
0.0
  0
VERTEX
  8
outProfile
 10
279.030094691109
 20
166.161112243891
 42
0.0
  0
VERTEX
  8
outProfile
 10
277.530094691109
 20
166.161112243891
 42
0.0
  0
VERTEX
  8
outProfile
 10
271.161581417887
 20
147.069537881807
 42
0.9684491971113
  0
VERTEX
  8
outProfile
 10
276.836440382534
 20
145.13072370179
 42
0.0
  0
SEQEND
  0
POLYLINE
  8
outProfile
 66
     1
 10
0.0
 20
0.0
 30
0.0
 70
     1
  0
VERTEX
  8
outProfile
 10
272.5
 20
167.0
 42
0.0
  0
VERTEX
  8
outProfile
 10
272.5
 20
192.0
 42
0.0
  0
VERTEX
  8
outProfile
 10
266.0
 20
192.0
 42
0.0
  0
VERTEX
  8
outProfile
 10
266.0
 20
167.0
 42
0.0
  0
VERTEX
  8
outProfile
 10
264.5
 20
167.0
 42
0.0
  0
VERTEX
  8
outProfile
 10
258.131486726778
 20
147.908425637916
 42
0.9684491971113
  0
VERTEX
  8
outProfile
 10
263.806345691425
 20
145.969611457899
 42
0.0
  0
SEQEND
  0
POLYLINE
  8
outProfile
 66
     1
 10
0.0
 20
0.0
 30
0.0
 70
     1
  0
VERTEX
  8
outProfile
 10
260.5
 20
168.0
 42
0.0
  0
VERTEX
  8
outProfile
 10
260.5
 20
193.0
 42
0.0
  0
VERTEX
  8
outProfile
 10
254.0
 20
193.0
 42
0.0
  0
VERTEX
  8
outProfile
 10
254.0
 20
168.0
 42
0.0
  0
VERTEX
  8
outProfile
 10
252.5
 20
168.0
 42
0.0
  0
VERTEX
  8
outProfile
 10
246.131486726778
 20
148.908425637916
 42
0.9684491971113
  0
VERTEX
  8
outProfile
 10
251.806345691425
 20
146.969611457899
 42
0.0
  0
SEQEND
  0
POLYLINE
  8
outProfile
 66
     1
 10
0.0
 20
0.0
 30
0.0
 70
     1
  0
VERTEX
  8
outProfile
 10
181.712223954289
 20
62.9999999999999
 42
0.3477558622724
  0
VERTEX
  8
outProfile
 10
223.39272840263
 20
21.3194955516582
 42
0.0
  0
VERTEX
  8
outProfile
 10
223.39272840263
 20
19.0
 42
0.0
  0
VERTEX
  8
outProfile
 10
225.89272840263
 20
14.0
 42
0.0
  0
VERTEX
  8
outProfile
 10
231.89272840263
 20
14.0
 42
0.0
  0
VERTEX
  8
outProfile
 10
234.39272840263
 20
19.0
 42
0.0
  0
VERTEX
  8
outProfile
 10
234.392728402631
 20
21.3194955516583
 42
0.3477558622724
  0
VERTEX
  8
outProfile
 10
276.073232850972
 20
62.9999999999997
 42
0.0
  0
VERTEX
  8
outProfile
 10
278.39272840263
 20
63.0
 42
0.0
  0
VERTEX
  8
outProfile
 10
283.39272840263
 20
65.5
 42
0.0
  0
VERTEX
  8
outProfile
 10
283.39272840263
 20
71.5
 42
0.0
  0
VERTEX
  8
outProfile
 10
278.39272840263
 20
74.0
 42
0.0
  0
VERTEX
  8
outProfile
 10
276.073232850972
 20
74.0000000000003
 42
0.3477558622724
  0
VERTEX
  8
outProfile
 10
234.392728402631
 20
115.680504448342
 42
0.0
  0
VERTEX
  8
outProfile
 10
234.39272840263
 20
118.0
 42
0.0
  0
VERTEX
  8
outProfile
 10
231.89272840263
 20
123.0
 42
0.0
  0
VERTEX
  8
outProfile
 10
225.89272840263
 20
123.0
 42
0.0
  0
VERTEX
  8
outProfile
 10
223.39272840263
 20
118.0
 42
0.0
  0
VERTEX
  8
outProfile
 10
223.39272840263
 20
115.680504448342
 42
0.3477558622724
  0
VERTEX
  8
outProfile
 10
181.712223954289
 20
74.0000000000003
 42
0.0
  0
VERTEX
  8
outProfile
 10
179.39272840263
 20
74.0
 42
0.0
  0
VERTEX
  8
outProfile
 10
174.39272840263
 20
71.5
 42
0.0
  0
VERTEX
  8
outProfile
 10
174.39272840263
 20
65.5
 42
0.0
  0
VERTEX
  8
outProfile
 10
179.39272840263
 20
63.0
 42
0.0
  0
SEQEND
  0
POLYLINE
  8
outProfile
 66
     1
 10
0.0
 20
0.0
 30
0.0
 70
     1
  0
VERTEX
  8
outProfile
 10
23.0
 20
175.116042153713
 42
1.0
  0
VERTEX
  8
outProfile
 10
23.0
 20
151.116042153713
 42
0.0
  0
VERTEX
  8
outProfile
 10
144.0
 20
151.116042153713
 42
1.0
  0
VERTEX
  8
outProfile
 10
144.0
 20
175.116042153713
 42
0.0
  0
SEQEND
  0
POLYLINE
  8
outProfile
 66
     1
 10
0.0
 20
0.0
 30
0.0
 70
     1
  0
VERTEX
  8
outProfile
 10
239.522244755778
 20
178.01766554194
 42
0.0
  0
VERTEX
  8
outProfile
 10
243.522244755778
 20
178.01766554194
 42
0.0
  0
VERTEX
  8
outProfile
 10
243.522244755778
 20
192.01766554194
 42
0.0
  0
VERTEX
  8
outProfile
 10
239.522244755778
 20
192.01766554194
 42
0.0
  0
VERTEX
  8
outProfile
 10
239.522244755778
 20
197.01766554194
 42
0.0
  0
VERTEX
  8
outProfile
 10
216.522244755778
 20
197.01766554194
 42
0.4142135623731
  0
VERTEX
  8
outProfile
 10
206.522244755778
 20
187.01766554194
 42
0.0
  0
VERTEX
  8
outProfile
 10
206.522244755778
 20
139.01766554194
 42
0.4142135623731
  0
VERTEX
  8
outProfile
 10
216.522244755778
 20
129.01766554194
 42
0.0
  0
VERTEX
  8
outProfile
 10
239.522244755778
 20
129.01766554194
 42
0.0
  0
VERTEX
  8
outProfile
 10
239.522244755778
 20
134.01766554194
 42
0.0
  0
VERTEX
  8
outProfile
 10
243.522244755778
 20
134.01766554194
 42
0.0
  0
VERTEX
  8
outProfile
 10
243.522244755778
 20
148.01766554194
 42
0.0
  0
VERTEX
  8
outProfile
 10
239.522244755778
 20
148.01766554194
 42
0.0
  0
VERTEX
  8
outProfile
 10
239.522244755778
 20
156.01766554194
 42
0.0
  0
VERTEX
  8
outProfile
 10
243.522244755778
 20
156.01766554194
 42
0.0
  0
VERTEX
  8
outProfile
 10
243.522244755778
 20
170.01766554194
 42
0.0
  0
VERTEX
  8
outProfile
 10
239.522244755778
 20
170.01766554194
 42
0.0
  0
SEQEND
  0
POLYLINE
  8
outProfile
 66
     1
 10
0.0
 20
0.0
 30
0.0
 70
     1
  0
VERTEX
  8
outProfile
 10
23.0
 20
206.0
 42
1.0
  0
VERTEX
  8
outProfile
 10
23.0
 20
182.0
 42
0.0
  0
VERTEX
  8
outProfile
 10
144.0
 20
182.0
 42
1.0
  0
VERTEX
  8
outProfile
 10
144.0
 20
206.0
 42
0.0
  0
SEQEND
  0
POLYLINE
  8
outProfile
 66
     1
 10
0.0
 20
0.0
 30
0.0
 70
     1
  0
VERTEX
  8
outProfile
 10
86.3708982999159
 20
287.982882980846
 42
0.0
  0
VERTEX
  8
outProfile
 10
115.370898299916
 20
287.982882980846
 42
-1.0
  0
VERTEX
  8
outProfile
 10
115.370898299916
 20
281.982882980846
 42
0.0
  0
VERTEX
  8
outProfile
 10
86.3708982999159
 20
281.982882980846
 42
-1.0
  0
SEQEND
  0
POLYLINE
  8
outProfile
 66
     1
 10
0.0
 20
0.0
 30
0.0
 70
     1
  0
VERTEX
  8
outProfile
 10
85.3708982999159
 20
249.982882980846
 42
0.0
  0
VERTEX
  8
outProfile
 10
114.370898299916
 20
249.982882980846
 42
-1.0
  0
VERTEX
  8
outProfile
 10
114.370898299916
 20
243.982882980846
 42
0.0
  0
VERTEX
  8
outProfile
 10
85.3708982999159
 20
243.982882980846
 42
-1.0
  0
SEQEND
  0
POLYLINE
  8
outProfile
 66
     1
 10
0.0
 20
0.0
 30
0.0
 70
     1
  0
VERTEX
  8
outProfile
 10
9.3489673005599
 20
215.86654585007
 42
0.4142135623731
  0
VERTEX
  8
outProfile
 10
11.3489673005599
 20
213.86654585007
 42
0.0
  0
VERTEX
  8
outProfile
 10
65.3489673005599
 20
213.86654585007
 42
0.4142135623731
  0
VERTEX
  8
outProfile
 10
67.3489673005599
 20
215.86654585007
 42
-0.4142135623731
  0
VERTEX
  8
outProfile
 10
69.3489673005599
 20
217.86654585007
 42
0.0
  0
VERTEX
  8
outProfile
 10
129.34896730056
 20
217.86654585007
 42
-0.4142135623731
  0
VERTEX
  8
outProfile
 10
131.34896730056
 20
215.86654585007
 42
0.4142135623731
  0
VERTEX
  8
outProfile
 10
133.34896730056
 20
213.86654585007
 42
0.0
  0
VERTEX
  8
outProfile
 10
187.34896730056
 20
213.86654585007
 42
0.4142135623731
  0
VERTEX
  8
outProfile
 10
189.34896730056
 20
215.86654585007
 42
0.0
  0
VERTEX
  8
outProfile
 10
189.34896730056
 20
239.86654585007
 42
0.4142135623731
  0
VERTEX
  8
outProfile
 10
187.34896730056
 20
241.86654585007
 42
0.0
  0
VERTEX
  8
outProfile
 10
133.34896730056
 20
241.86654585007
 42
0.4142135623731
  0
VERTEX
  8
outProfile
 10
131.34896730056
 20
239.86654585007
 42
-0.4142135623731
  0
VERTEX
  8
outProfile
 10
129.34896730056
 20
237.86654585007
 42
0.0
  0
VERTEX
  8
outProfile
 10
69.3489673005599
 20
237.86654585007
 42
-0.4142135623731
  0
VERTEX
  8
outProfile
 10
67.3489673005599
 20
239.86654585007
 42
0.4142135623731
  0
VERTEX
  8
outProfile
 10
65.3489673005599
 20
241.86654585007
 42
0.0
  0
VERTEX
  8
outProfile
 10
11.3489673005599
 20
241.86654585007
 42
0.4142135623731
  0
VERTEX
  8
outProfile
 10
9.3489673005599
 20
239.86654585007
 42
0.0
  0
SEQEND
  0
POLYLINE
  8
outProfile
 66
     1
 10
0.0
 20
0.0
 30
0.0
 70
     1
  0
VERTEX
  8
outProfile
 10
10.8342476842456
 20
253.164971423556
 42
0.4142135623731
  0
VERTEX
  8
outProfile
 10
12.8342476842456
 20
251.164971423556
 42
0.0
  0
VERTEX
  8
outProfile
 10
66.8342476842456
 20
251.164971423556
 42
0.4142135623731
  0
VERTEX
  8
outProfile
 10
68.8342476842456
 20
253.164971423556
 42
-0.4142135623731
  0
VERTEX
  8
outProfile
 10
70.8342476842456
 20
255.164971423556
 42
0.0
  0
VERTEX
  8
outProfile
 10
130.834247684245
 20
255.164971423556
 42
-0.4142135623731
  0
VERTEX
  8
outProfile
 10
132.834247684245
 20
253.164971423556
 42
0.4142135623731
  0
VERTEX
  8
outProfile
 10
134.834247684245
 20
251.164971423556
 42
0.0
  0
VERTEX
  8
outProfile
 10
188.834247684246
 20
251.164971423556
 42
0.4142135623731
  0
VERTEX
  8
outProfile
 10
190.834247684246
 20
253.164971423556
 42
0.0
  0
VERTEX
  8
outProfile
 10
190.834247684246
 20
277.164971423556
 42
0.4142135623731
  0
VERTEX
  8
outProfile
 10
188.834247684246
 20
279.164971423556
 42
0.0
  0
VERTEX
  8
outProfile
 10
134.834247684245
 20
279.164971423556
 42
0.4142135623731
  0
VERTEX
  8
outProfile
 10
132.834247684245
 20
277.164971423556
 42
-0.4142135623731
  0
VERTEX
  8
outProfile
 10
130.834247684245
 20
275.164971423556
 42
0.0
  0
VERTEX
  8
outProfile
 10
70.8342476842456
 20
275.164971423556
 42
-0.4142135623731
  0
VERTEX
  8
outProfile
 10
68.8342476842456
 20
277.164971423556
 42
0.4142135623731
  0
VERTEX
  8
outProfile
 10
66.8342476842456
 20
279.164971423556
 42
0.0
  0
VERTEX
  8
outProfile
 10
12.8342476842456
 20
279.164971423556
 42
0.4142135623731
  0
VERTEX
  8
outProfile
 10
10.8342476842456
 20
277.164971423556
 42
0.0
  0
SEQEND
  0
POLYLINE
  8
outProfile
 66
     1
 10
0.0
 20
0.0
 30
0.0
 70
     1
  0
VERTEX
  8
outProfile
 10
216.5
 20
263.0
 42
0.0
  0
VERTEX
  8
outProfile
 10
267.5
 20
263.0
 42
0.0
  0
VERTEX
  8
outProfile
 10
267.5
 20
277.0
 42
0.0
  0
VERTEX
  8
outProfile
 10
216.5
 20
277.0
 42
0.0
  0
SEQEND
  0
ENDSEC
  0
EOF
